  0
SECTION
  2
HEADER
  9
$ACADVER
  1
AC1018
  9
$HANDSEED
  5
FFFFFF
  9
$EXTMAX
 10
7569025.70000000019
 20
5714897.97599999979
 30
1000000.00
  9
$EXTMIN
 10
7569000.05399999954
 20
5714873.92300000042
 30
0.00
  9
$LIMMIN
 10
7569000.05399999954
 20
5714873.92300000042
  9
$LIMMAX
 10
7569025.70000000019
 20
5714897.97599999979
  9
$DIMASZ
 40
2.5
  9
$DIMGAP
 40
0.625
  9
$INSUNITS
 70
6
  9
$DIMEXO
 40
0.625
  9
$DIMTXT
 40
2.5
  9
$DIMSTYLE
  2
Standard
  9
$PLIMMIN
 10
0.0
 20
0.0
  9
$PLIMMAX
 10
210.0
 20
297.0
  9
$DIMEXE
 40
1.25
  9
$TEXTSIZE
 40
2.5
  9
$TEXTSTYLE
  7
Standard
  9
$LWDISPLAY
290
1
  9
$TDCREATE
 40
45226.732300150
  9
$TDUCREATE
 40
45226.648966829
  9
$TDUPDATE
 40
45226.732300162
  9
$TDUUPDATE
 40
45226.648966829
  9
$TDINDWG
 40
0.0
  9
$TDUSRTIMER
 40
0.0
  9
$USRTIMER
 70
1
  0
ENDSEC
  0
SECTION
  2
TABLES
  0
TABLE
  2
VPORT
  5
1
100
AcDbSymbolTable
 70
1
  0
VPORT
  5
2
100
AcDbSymbolTableRecord
100
AcDbViewportTableRecord
  2
*ACTIVE
 70
0
 10
0.0
 20
0.0
 11
1.0
 21
1.0
 12
7569012.877
 22
5714885.950
 13
0.0
 23
0.0
 14
1.0
 24
1.0
 15
0.0
 25
0.0
 16
0.0
 26
0.0
 36
1.0
 17
0.0
 27
0.0
 37
0.0
 40
24.053
 41
1.066
 42
50.0
 43
0.0
 44
0.0
 50
0.0
 51
0.0
 71
0
 72
100
 73
1
 74
1
 75
0
 76
0
 77
0
 78
0
  0
ENDTAB
  0
TABLE
  2
LTYPE
  5
3
100
AcDbSymbolTable
 70
3
  0
LTYPE
  5
4
100
AcDbSymbolTableRecord
100
AcDbLinetypeTableRecord
  2
ByBlock
 70
0
  3

 72
65
 73
0
 40
0.0
  0
LTYPE
  5
5
100
AcDbSymbolTableRecord
100
AcDbLinetypeTableRecord
  2
ByLayer
 70
0
  3

 72
65
 73
0
 40
0.0
  0
LTYPE
  5
6
100
AcDbSymbolTableRecord
100
AcDbLinetypeTableRecord
  2
CONTINUOUS
 70
0
  3
Solid line
 72
65
 73
0
 40
0.0
  0
LTYPE
  5
7
100
AcDbSymbolTableRecord
100
AcDbLinetypeTableRecord
  2
L_0_03
 70
0
  3
Uzytek_gruntowy
 72
65
 73
2
 40
0.2
 49
0.1
 74
0
 49
-0.1
 74
0
  0
ENDTAB
  0
TABLE
  2
LAYER
  5
8
100
AcDbSymbolTable
 70
3
  0
LAYER
  5
9
100
AcDbSymbolTableRecord
100
AcDbLayerTableRecord
  2
0
 70
0
420
0
  6
CONTINUOUS
370
18
390
A
  0
LAYER
  5
B
100
AcDbSymbolTableRecord
100
AcDbLayerTableRecord
  2
pomocnicza
 70
0
420
65280
  6
CONTINUOUS
370
18
390
A
  0
LAYER
  5
C
100
AcDbSymbolTableRecord
100
AcDbLayerTableRecord
  2
proj_osie
 70
0
420
16711680
  6
L_0_03
370
18
390
A
  0
ENDTAB
  0
TABLE
  2
STYLE
  5
D
100
AcDbSymbolTable
 70
2
  0
STYLE
  5
E
100
AcDbSymbolTableRecord
100
AcDbTextStyleTableRecord
  2
STANDARD
 70
0
 40
0.0
 41
1.0
 50
0.0
 71
0
  3
simplex.shx
  4

  0
STYLE
  5
F
100
AcDbSymbolTableRecord
100
AcDbTextStyleTableRecord
  2
STANDARD_ITALIC
 70
0
 40
0.0
 41
1.0
 50
15.0
 71
0
  3
simplex.shx
  4

  0
ENDTAB
  0
TABLE
  2
VIEW
  5
10
100
AcDbSymbolTable
 70
0
  0
ENDTAB
  0
TABLE
  2
UCS
  5
11
100
AcDbSymbolTable
 70
0
  0
ENDTAB
  0
TABLE
  2
APPID
  5
12
100
AcDbSymbolTable
 70
1
  0
APPID
  5
13
100
AcDbSymbolTableRecord
100
AcDbRegAppTableRecord
  2
ACAD
 70
0
  0
ENDTAB
  0
TABLE
  2
DIMSTYLE
  5
14
100
AcDbSymbolTable
 70
1
100
AcDbDimStyleTable
  0
DIMSTYLE
105
15
100
AcDbSymbolTableRecord
100
AcDbDimStyleTableRecord
  2
Standard
 70
0
340
E
  0
ENDTAB
  0
TABLE
  2
BLOCK_RECORD
  5
16
100
AcDbSymbolTable
 70
2
  0
BLOCK_RECORD
  5
17
100
AcDbSymbolTableRecord
100
AcDbBlockTableRecord
  2
*Model_Space
340
18
  0
BLOCK_RECORD
  5
19
100
AcDbSymbolTableRecord
100
AcDbBlockTableRecord
  2
*Paper_Space
340
1A
  0
ENDTAB
  0
ENDSEC
  0
SECTION
  2
BLOCKS
  0
BLOCK
  5
1B
100
AcDbEntity
  8
0
100
AcDbBlockBegin
  2
*Model_Space
 70
0
 10
0.0
 20
0.0
 30
0.0
  3
*Model_Space
  1

  0
ENDBLK
  5
1C
100
AcDbEntity
  8
0
100
AcDbBlockEnd
  0
BLOCK
  5
1D
100
AcDbEntity
 67
1
  8
0
100
AcDbBlockBegin
  2
*Paper_Space
 70
0
 10
0.0
 20
0.0
 30
0.0
  3
*Paper_Space
  1

  0
ENDBLK
  5
1E
100
AcDbEntity
 67
1
  8
0
100
AcDbBlockEnd
  0
ENDSEC
  0
SECTION
  2
ENTITIES
  0
POLYLINE
  5
1F
100
AcDbEntity
  8
pomocnicza
  6
CONTINUOUS
420
65280
370
13
100
AcDb2dPolyline
 66
1
 70
128
  0
VERTEX
  5
20
100
AcDbEntity
  8
pomocnicza
100
AcDbVertex
100
AcDb2dVertex
 10
7569000.82318909187
 20
5714885.75150976889
  0
VERTEX
  5
21
100
AcDbEntity
  8
pomocnicza
100
AcDbVertex
100
AcDb2dVertex
 10
7569000.68541622441
 20
5714884.25785028934
  0
VERTEX
  5
22
100
AcDbEntity
  8
pomocnicza
100
AcDbVertex
100
AcDb2dVertex
 10
7569004.17062167544
 20
5714883.93638027087
  0
VERTEX
  5
23
100
AcDbEntity
  8
pomocnicza
100
AcDbVertex
100
AcDb2dVertex
 10
7569004.30839454103
 20
5714885.43003974855
  0
SEQEND
  5
24
100
AcDbEntity
  8
pomocnicza
  0
POLYLINE
  5
25
100
AcDbEntity
  8
pomocnicza
  6
CONTINUOUS
420
2062848
370
70
100
AcDb2dPolyline
 66
1
 70
128
  0
VERTEX
  5
26
100
AcDbEntity
  8
pomocnicza
100
AcDbVertex
100
AcDb2dVertex
 10
7569015.00558224134
 20
5714881.93613282591
  0
VERTEX
  5
27
100
AcDbEntity
  8
pomocnicza
100
AcDbVertex
100
AcDb2dVertex
 10
7569014.38965148479
 20
5714874.96328338608
  0
VERTEX
  5
28
100
AcDbEntity
  8
pomocnicza
100
AcDbVertex
100
AcDb2dVertex
 10
7569020.21696137358
 20
5714874.44854125381
  0
VERTEX
  5
29
100
AcDbEntity
  8
pomocnicza
100
AcDbVertex
100
AcDb2dVertex
 10
7569020.39118178654
 20
5714876.42086152546
  0
VERTEX
  5
2A
100
AcDbEntity
  8
pomocnicza
100
AcDbVertex
100
AcDb2dVertex
 10
7569022.16427778732
 20
5714876.2642391324
  0
VERTEX
  5
2B
100
AcDbEntity
  8
pomocnicza
100
AcDbVertex
100
AcDb2dVertex
 10
7569022.43176771607
 20
5714879.29244803078
  0
VERTEX
  5
2C
100
AcDbEntity
  8
pomocnicza
100
AcDbVertex
100
AcDb2dVertex
 10
7569020.65867171623
 20
5714879.44907042291
  0
VERTEX
  5
2D
100
AcDbEntity
  8
pomocnicza
100
AcDbVertex
100
AcDb2dVertex
 10
7569020.83289213106
 20
5714881.42139069363
  0
VERTEX
  5
2E
100
AcDbEntity
  8
pomocnicza
100
AcDbVertex
100
AcDb2dVertex
 10
7569015.00558224134
 20
5714881.93613282591
  0
SEQEND
  5
2F
100
AcDbEntity
  8
pomocnicza
  0
POLYLINE
  5
30
100
AcDbEntity
  8
pomocnicza
  6
CONTINUOUS
420
2062848
370
35
100
AcDb2dPolyline
 66
1
 70
128
  0
VERTEX
  5
31
100
AcDbEntity
  8
pomocnicza
100
AcDbVertex
100
AcDb2dVertex
 10
7569015.0011827359
 20
5714881.88632675819
  0
VERTEX
  5
32
100
AcDbEntity
  8
pomocnicza
100
AcDbVertex
100
AcDb2dVertex
 10
7569012.5108793648
 20
5714882.10630202759
  0
VERTEX
  5
33
100
AcDbEntity
  8
pomocnicza
100
AcDbVertex
100
AcDb2dVertex
 10
7569011.90374761913
 20
5714875.2330647232
  0
VERTEX
  5
34
100
AcDbEntity
  8
pomocnicza
100
AcDbVertex
100
AcDb2dVertex
 10
7569014.39405099023
 20
5714875.01308945287
  0
SEQEND
  5
35
100
AcDbEntity
  8
pomocnicza
  0
POLYLINE
  5
36
100
AcDbEntity
  8
pomocnicza
  6
CONTINUOUS
420
2062848
370
35
100
AcDb2dPolyline
 66
1
 70
128
  0
VERTEX
  5
37
100
AcDbEntity
  8
pomocnicza
100
AcDbVertex
100
AcDb2dVertex
 10
7569012.29530359991
 20
5714879.66580472421
  0
VERTEX
  5
38
100
AcDbEntity
  8
pomocnicza
100
AcDbVertex
100
AcDb2dVertex
 10
7569011.9466611268
 20
5714879.69660126138
  0
VERTEX
  5
39
100
AcDbEntity
  8
pomocnicza
100
AcDbVertex
100
AcDb2dVertex
 10
7569011.77068091091
 20
5714877.70435856469
  0
VERTEX
  5
3A
100
AcDbEntity
  8
pomocnicza
100
AcDbVertex
100
AcDb2dVertex
 10
7569012.11932338402
 20
5714877.67356202658
  0
SEQEND
  5
3B
100
AcDbEntity
  8
pomocnicza
  0
POLYLINE
  5
3C
100
AcDbEntity
  8
pomocnicza
  6
CONTINUOUS
420
2062848
370
35
100
AcDb2dPolyline
 66
1
 70
128
  0
VERTEX
  5
3D
100
AcDbEntity
  8
pomocnicza
100
AcDbVertex
100
AcDb2dVertex
 10
7569011.9466611268
 20
5714879.69660126138
  0
VERTEX
  5
3E
100
AcDbEntity
  8
pomocnicza
100
AcDbVertex
100
AcDb2dVertex
 10
7569011.59801865555
 20
5714879.72739779856
  0
VERTEX
  5
3F
100
AcDbEntity
  8
pomocnicza
100
AcDbVertex
100
AcDb2dVertex
 10
7569011.42203843966
 20
5714877.7351551028
  0
VERTEX
  5
40
100
AcDbEntity
  8
pomocnicza
100
AcDbVertex
100
AcDb2dVertex
 10
7569011.77068091091
 20
5714877.70435856469
  0
SEQEND
  5
41
100
AcDbEntity
  8
pomocnicza
  0
POLYLINE
  5
42
100
AcDbEntity
  8
pomocnicza
  6
CONTINUOUS
420
2062848
370
35
100
AcDb2dPolyline
 66
1
 70
128
  0
VERTEX
  5
43
100
AcDbEntity
  8
pomocnicza
100
AcDbVertex
100
AcDb2dVertex
 10
7569022.17307679821
 20
5714876.36385126691
  0
VERTEX
  5
44
100
AcDbEntity
  8
pomocnicza
100
AcDbVertex
100
AcDb2dVertex
 10
7569023.26881028246
 20
5714876.26706214808
  0
VERTEX
  5
45
100
AcDbEntity
  8
pomocnicza
100
AcDbVertex
100
AcDb2dVertex
 10
7569023.51870218944
 20
5714879.09604677744
  0
VERTEX
  5
46
100
AcDbEntity
  8
pomocnicza
100
AcDbVertex
100
AcDb2dVertex
 10
7569022.42296870612
 20
5714879.19283589628
  0
SEQEND
  5
47
100
AcDbEntity
  8
pomocnicza
  0
POLYLINE
  5
48
100
AcDbEntity
  8
pomocnicza
  6
CONTINUOUS
420
2062848
370
35
100
AcDb2dPolyline
 66
1
 70
128
  0
VERTEX
  5
49
100
AcDbEntity
  8
pomocnicza
100
AcDbVertex
100
AcDb2dVertex
 10
7569023.26881028246
 20
5714876.26706214808
  0
VERTEX
  5
4A
100
AcDbEntity
  8
pomocnicza
100
AcDbVertex
100
AcDb2dVertex
 10
7569023.61745275371
 20
5714876.23626560997
  0
VERTEX
  5
4B
100
AcDbEntity
  8
pomocnicza
100
AcDbVertex
100
AcDb2dVertex
 10
7569023.86734466068
 20
5714879.06525023934
  0
VERTEX
  5
4C
100
AcDbEntity
  8
pomocnicza
100
AcDbVertex
100
AcDb2dVertex
 10
7569023.51870218944
 20
5714879.09604677744
  0
SEQEND
  5
4D
100
AcDbEntity
  8
pomocnicza
  0
POLYLINE
  5
4E
100
AcDbEntity
  8
pomocnicza
  6
CONTINUOUS
420
2062848
370
35
100
AcDb2dPolyline
 66
1
 70
128
  0
VERTEX
  5
4F
100
AcDbEntity
  8
pomocnicza
100
AcDbVertex
100
AcDb2dVertex
 10
7569023.61745275371
 20
5714876.23626560997
  0
VERTEX
  5
50
100
AcDbEntity
  8
pomocnicza
100
AcDbVertex
100
AcDb2dVertex
 10
7569023.96609522588
 20
5714876.2054690728
  0
VERTEX
  5
51
100
AcDbEntity
  8
pomocnicza
100
AcDbVertex
100
AcDb2dVertex
 10
7569024.21598713286
 20
5714879.03445370216
  0
VERTEX
  5
52
100
AcDbEntity
  8
pomocnicza
100
AcDbVertex
100
AcDb2dVertex
 10
7569023.86734466068
 20
5714879.06525023934
  0
SEQEND
  5
53
100
AcDbEntity
  8
pomocnicza
  0
POLYLINE
  5
54
100
AcDbEntity
  8
pomocnicza
  6
CONTINUOUS
420
65280
370
13
100
AcDb2dPolyline
 66
1
 70
129
  0
VERTEX
  5
55
100
AcDbEntity
  8
pomocnicza
100
AcDbVertex
100
AcDb2dVertex
 10
7569001.23650768772
 20
5714890.23248820379
  0
VERTEX
  5
56
100
AcDbEntity
  8
pomocnicza
100
AcDbVertex
100
AcDb2dVertex
 10
7569004.72171313688
 20
5714889.91101818346
  0
VERTEX
  5
57
100
AcDbEntity
  8
pomocnicza
100
AcDbVertex
100
AcDb2dVertex
 10
7569004.30839454103
 20
5714885.43003974855
  0
VERTEX
  5
58
100
AcDbEntity
  8
pomocnicza
100
AcDbVertex
100
AcDb2dVertex
 10
7569000.82318909187
 20
5714885.75150976889
  0
SEQEND
  5
59
100
AcDbEntity
  8
pomocnicza
  0
POLYLINE
  5
5A
100
AcDbEntity
  8
pomocnicza
  6
CONTINUOUS
420
65280
370
13
100
AcDb2dPolyline
 66
1
 70
129
  0
VERTEX
  5
5B
100
AcDbEntity
  8
pomocnicza
100
AcDbVertex
100
AcDb2dVertex
 10
7569000.83430052828
 20
5714884.56547581684
  0
VERTEX
  5
5C
100
AcDbEntity
  8
pomocnicza
100
AcDbVertex
100
AcDb2dVertex
 10
7569001.03345512599
 20
5714884.54710610118
  0
VERTEX
  5
5D
100
AcDbEntity
  8
pomocnicza
100
AcDbVertex
100
AcDb2dVertex
 10
7569001.01508541126
 20
5714884.34795150254
  0
VERTEX
  5
5E
100
AcDbEntity
  8
pomocnicza
100
AcDbVertex
100
AcDb2dVertex
 10
7569000.81593081262
 20
5714884.36632122006
  0
SEQEND
  5
5F
100
AcDbEntity
  8
pomocnicza
  0
POLYLINE
  5
60
100
AcDbEntity
  8
pomocnicza
  6
CONTINUOUS
420
65280
370
13
100
AcDb2dPolyline
 66
1
 70
129
  0
VERTEX
  5
61
100
AcDbEntity
  8
pomocnicza
100
AcDbVertex
100
AcDb2dVertex
 10
7569004.06215074565
 20
5714884.06689485814
  0
VERTEX
  5
62
100
AcDbEntity
  8
pomocnicza
100
AcDbVertex
100
AcDb2dVertex
 10
7569003.86299614888
 20
5714884.08526457287
  0
VERTEX
  5
63
100
AcDbEntity
  8
pomocnicza
100
AcDbVertex
100
AcDb2dVertex
 10
7569003.88136586361
 20
5714884.28441917058
  0
VERTEX
  5
64
100
AcDbEntity
  8
pomocnicza
100
AcDbVertex
100
AcDb2dVertex
 10
7569004.08052046131
 20
5714884.26604945585
  0
SEQEND
  5
65
100
AcDbEntity
  8
pomocnicza
  0
POLYLINE
  5
66
100
AcDbEntity
  8
pomocnicza
  6
CONTINUOUS
420
2062848
370
70
100
AcDb2dPolyline
 66
1
 70
129
  0
VERTEX
  5
67
100
AcDbEntity
  8
pomocnicza
100
AcDbVertex
100
AcDb2dVertex
 10
7569012.03239648975
 20
5714875.55298575759
  0
VERTEX
  5
68
100
AcDbEntity
  8
pomocnicza
100
AcDbVertex
100
AcDb2dVertex
 10
7569012.2116983328
 20
5714875.5371475378
  0
VERTEX
  5
69
100
AcDbEntity
  8
pomocnicza
100
AcDbVertex
100
AcDb2dVertex
 10
7569012.19586011302
 20
5714875.35784569569
  0
VERTEX
  5
6A
100
AcDbEntity
  8
pomocnicza
100
AcDbVertex
100
AcDb2dVertex
 10
7569012.01655826997
 20
5714875.37368391454
  0
SEQEND
  5
6B
100
AcDbEntity
  8
pomocnicza
  0
POLYLINE
  5
6C
100
AcDbEntity
  8
pomocnicza
  6
CONTINUOUS
420
2062848
370
70
100
AcDb2dPolyline
 66
1
 70
129
  0
VERTEX
  5
6D
100
AcDbEntity
  8
pomocnicza
100
AcDbVertex
100
AcDb2dVertex
 10
7569012.19077868387
 20
5714877.34600418434
  0
VERTEX
  5
6E
100
AcDbEntity
  8
pomocnicza
100
AcDbVertex
100
AcDb2dVertex
 10
7569012.37008052692
 20
5714877.33016596455
  0
VERTEX
  5
6F
100
AcDbEntity
  8
pomocnicza
100
AcDbVertex
100
AcDb2dVertex
 10
7569012.35424230806
 20
5714877.15086412244
  0
VERTEX
  5
70
100
AcDbEntity
  8
pomocnicza
100
AcDbVertex
100
AcDb2dVertex
 10
7569012.17494046502
 20
5714877.16670234222
  0
SEQEND
  5
71
100
AcDbEntity
  8
pomocnicza
  0
POLYLINE
  5
72
100
AcDbEntity
  8
pomocnicza
  6
CONTINUOUS
420
2062848
370
70
100
AcDb2dPolyline
 66
1
 70
129
  0
VERTEX
  5
73
100
AcDbEntity
  8
pomocnicza
100
AcDbVertex
100
AcDb2dVertex
 10
7569012.43891078886
 20
5714880.15506638773
  0
VERTEX
  5
74
100
AcDbEntity
  8
pomocnicza
100
AcDbVertex
100
AcDb2dVertex
 10
7569012.6182126319
 20
5714880.13922816794
  0
VERTEX
  5
75
100
AcDbEntity
  8
pomocnicza
100
AcDbVertex
100
AcDb2dVertex
 10
7569012.60237441212
 20
5714879.95992632583
  0
VERTEX
  5
76
100
AcDbEntity
  8
pomocnicza
100
AcDbVertex
100
AcDb2dVertex
 10
7569012.42307256907
 20
5714879.97576454561
  0
SEQEND
  5
77
100
AcDbEntity
  8
pomocnicza
  0
POLYLINE
  5
78
100
AcDbEntity
  8
pomocnicza
  6
CONTINUOUS
420
2062848
370
70
100
AcDb2dPolyline
 66
1
 70
129
  0
VERTEX
  5
79
100
AcDbEntity
  8
pomocnicza
100
AcDbVertex
100
AcDb2dVertex
 10
7569012.5972929839
 20
5714881.94808481354
  0
VERTEX
  5
7A
100
AcDbEntity
  8
pomocnicza
100
AcDbVertex
100
AcDb2dVertex
 10
7569012.77659482695
 20
5714881.93224659469
  0
VERTEX
  5
7B
100
AcDbEntity
  8
pomocnicza
100
AcDbVertex
100
AcDb2dVertex
 10
7569012.76075660717
 20
5714881.75294475257
  0
VERTEX
  5
7C
100
AcDbEntity
  8
pomocnicza
100
AcDbVertex
100
AcDb2dVertex
 10
7569012.58145476412
 20
5714881.76878297236
  0
SEQEND
  5
7D
100
AcDbEntity
  8
pomocnicza
  0
POLYLINE
  5
7E
100
AcDbEntity
  8
pomocnicza
  6
CONTINUOUS
420
2062848
370
70
100
AcDb2dPolyline
 66
1
 70
129
  0
VERTEX
  5
7F
100
AcDbEntity
  8
pomocnicza
100
AcDbVertex
100
AcDb2dVertex
 10
7569023.01624200959
 20
5714879.09023576509
  0
VERTEX
  5
80
100
AcDbEntity
  8
pomocnicza
100
AcDbVertex
100
AcDb2dVertex
 10
7569023.19554385263
 20
5714879.07439754531
  0
VERTEX
  5
81
100
AcDbEntity
  8
pomocnicza
100
AcDbVertex
100
AcDb2dVertex
 10
7569023.17970563285
 20
5714878.89509570226
  0
VERTEX
  5
82
100
AcDbEntity
  8
pomocnicza
100
AcDbVertex
100
AcDb2dVertex
 10
7569023.0004037898
 20
5714878.91093392204
  0
SEQEND
  5
83
100
AcDbEntity
  8
pomocnicza
  0
POLYLINE
  5
84
100
AcDbEntity
  8
pomocnicza
  6
CONTINUOUS
420
2062848
370
70
100
AcDb2dPolyline
 66
1
 70
129
  0
VERTEX
  5
85
100
AcDbEntity
  8
pomocnicza
100
AcDbVertex
100
AcDb2dVertex
 10
7569022.79098733235
 20
5714876.54016511235
  0
VERTEX
  5
86
100
AcDbEntity
  8
pomocnicza
100
AcDbVertex
100
AcDb2dVertex
 10
7569022.9702891754
 20
5714876.52432689257
  0
VERTEX
  5
87
100
AcDbEntity
  8
pomocnicza
100
AcDbVertex
100
AcDb2dVertex
 10
7569022.95445095561
 20
5714876.34502505045
  0
VERTEX
  5
88
100
AcDbEntity
  8
pomocnicza
100
AcDbVertex
100
AcDb2dVertex
 10
7569022.77514911257
 20
5714876.36086327024
  0
SEQEND
  5
89
100
AcDbEntity
  8
pomocnicza
  0
POLYLINE
  5
8A
100
AcDbEntity
  8
proj_osie
  6
ByLayer
370
18
100
AcDb2dPolyline
 66
1
 70
128
  0
VERTEX
  5
8B
100
AcDbEntity
  8
proj_osie
100
AcDbVertex
100
AcDb2dVertex
 10
7569001.36352726258
 20
5714890.07975306362
  0
VERTEX
  5
8C
100
AcDbEntity
  8
proj_osie
100
AcDbVertex
100
AcDb2dVertex
 10
7569004.56971036736
 20
5714889.78443462122
  0
SEQEND
  5
8D
100
AcDbEntity
  8
proj_osie
  0
POLYLINE
  5
8E
100
AcDbEntity
  8
proj_osie
  6
ByLayer
370
18
100
AcDb2dPolyline
 66
1
 70
128
  0
VERTEX
  5
8F
100
AcDbEntity
  8
proj_osie
100
AcDbVertex
100
AcDb2dVertex
 10
7569004.56971036736
 20
5714889.78443462122
  0
VERTEX
  5
90
100
AcDbEntity
  8
proj_osie
100
AcDbVertex
100
AcDb2dVertex
 10
7569004.18147355132
 20
5714885.58228685521
  0
SEQEND
  5
91
100
AcDbEntity
  8
proj_osie
  0
POLYLINE
  5
92
100
AcDbEntity
  8
proj_osie
  6
ByLayer
370
18
100
AcDb2dPolyline
 66
1
 70
128
  0
VERTEX
  5
93
100
AcDbEntity
  8
proj_osie
100
AcDbVertex
100
AcDb2dVertex
 10
7569004.18147355132
 20
5714885.58228685521
  0
VERTEX
  5
94
100
AcDbEntity
  8
proj_osie
100
AcDbVertex
100
AcDb2dVertex
 10
7569000.97528881766
 20
5714885.87852544617
  0
SEQEND
  5
95
100
AcDbEntity
  8
proj_osie
  0
POLYLINE
  5
96
100
AcDbEntity
  8
proj_osie
  6
ByLayer
370
18
100
AcDb2dPolyline
 66
1
 70
128
  0
VERTEX
  5
97
100
AcDbEntity
  8
proj_osie
100
AcDbVertex
100
AcDb2dVertex
 10
7569000.97528881766
 20
5714885.87852544617
  0
VERTEX
  5
98
100
AcDbEntity
  8
proj_osie
100
AcDbVertex
100
AcDb2dVertex
 10
7569001.36352726258
 20
5714890.07975306362
  0
SEQEND
  5
99
100
AcDbEntity
  8
proj_osie
  0
POLYLINE
  5
9A
100
AcDbEntity
  8
proj_osie
  6
ByLayer
370
18
100
AcDb2dPolyline
 66
1
 70
128
  0
VERTEX
  5
9B
100
AcDbEntity
  8
proj_osie
100
AcDbVertex
100
AcDb2dVertex
 10
7569004.04724644404
 20
5714884.13818214927
  0
VERTEX
  5
9C
100
AcDbEntity
  8
proj_osie
100
AcDbVertex
100
AcDb2dVertex
 10
7569000.8412464438
 20
5714884.43518214859
  0
SEQEND
  5
9D
100
AcDbEntity
  8
proj_osie
  0
POLYLINE
  5
9E
100
AcDbEntity
  8
proj_osie
  6
ByLayer
370
18
100
AcDb2dPolyline
 66
1
 70
128
  0
VERTEX
  5
9F
100
AcDbEntity
  8
proj_osie
100
AcDbVertex
100
AcDb2dVertex
 10
7569004.18147355132
 20
5714885.58228685521
  0
VERTEX
  5
A0
100
AcDbEntity
  8
proj_osie
100
AcDbVertex
100
AcDb2dVertex
 10
7569004.04724644404
 20
5714884.13818214927
  0
SEQEND
  5
A1
100
AcDbEntity
  8
proj_osie
  0
POLYLINE
  5
A2
100
AcDbEntity
  8
proj_osie
  6
ByLayer
370
18
100
AcDb2dPolyline
 66
1
 70
128
  0
VERTEX
  5
A3
100
AcDbEntity
  8
proj_osie
100
AcDbVertex
100
AcDb2dVertex
 10
7569000.97528881766
 20
5714885.87852544617
  0
VERTEX
  5
A4
100
AcDbEntity
  8
proj_osie
100
AcDbVertex
100
AcDb2dVertex
 10
7569000.8412464438
 20
5714884.43518214859
  0
SEQEND
  5
A5
100
AcDbEntity
  8
proj_osie
  0
POLYLINE
  5
A6
100
AcDbEntity
  8
proj_osie
  6
ByLayer
370
18
100
AcDb2dPolyline
 66
1
 70
128
  0
VERTEX
  5
A7
100
AcDbEntity
  8
proj_osie
100
AcDbVertex
100
AcDb2dVertex
 10
7569015.26935452037
 20
5714881.6215938488
  0
VERTEX
  5
A8
100
AcDbEntity
  8
proj_osie
100
AcDbVertex
100
AcDb2dVertex
 10
7569014.70439772774
 20
5714875.22639301606
  0
SEQEND
  5
A9
100
AcDbEntity
  8
proj_osie
  0
POLYLINE
  5
AA
100
AcDbEntity
  8
proj_osie
  6
ByLayer
370
18
100
AcDb2dPolyline
 66
1
 70
128
  0
VERTEX
  5
AB
100
AcDbEntity
  8
proj_osie
100
AcDbVertex
100
AcDb2dVertex
 10
7569014.70439772774
 20
5714875.22639301606
  0
VERTEX
  5
AC
100
AcDbEntity
  8
proj_osie
100
AcDbVertex
100
AcDb2dVertex
 10
7569019.9536109101
 20
5714874.76335962769
  0
SEQEND
  5
AD
100
AcDbEntity
  8
proj_osie
  0
POLYLINE
  5
AE
100
AcDbEntity
  8
proj_osie
  6
ByLayer
370
18
100
AcDb2dPolyline
 66
1
 70
128
  0
VERTEX
  5
AF
100
AcDbEntity
  8
proj_osie
100
AcDbVertex
100
AcDb2dVertex
 10
7569019.9536109101
 20
5714874.76335962769
  0
VERTEX
  5
B0
100
AcDbEntity
  8
proj_osie
100
AcDbVertex
100
AcDb2dVertex
 10
7569020.5186368404
 20
5714881.15765350684
  0
SEQEND
  5
B1
100
AcDbEntity
  8
proj_osie
  0
POLYLINE
  5
B2
100
AcDbEntity
  8
proj_osie
  6
ByLayer
370
18
100
AcDb2dPolyline
 66
1
 70
128
  0
VERTEX
  5
B3
100
AcDbEntity
  8
proj_osie
100
AcDbVertex
100
AcDb2dVertex
 10
7569020.5186368404
 20
5714881.15765350684
  0
VERTEX
  5
B4
100
AcDbEntity
  8
proj_osie
100
AcDbVertex
100
AcDb2dVertex
 10
7569015.26935452037
 20
5714881.6215938488
  0
SEQEND
  5
B5
100
AcDbEntity
  8
proj_osie
  0
POLYLINE
  5
B6
100
AcDbEntity
  8
proj_osie
  6
ByLayer
370
18
100
AcDb2dPolyline
 66
1
 70
128
  0
VERTEX
  5
B7
100
AcDbEntity
  8
proj_osie
100
AcDbVertex
100
AcDb2dVertex
 10
7569012.67908534314
 20
5714881.85078389384
  0
VERTEX
  5
B8
100
AcDbEntity
  8
proj_osie
100
AcDbVertex
100
AcDb2dVertex
 10
7569012.11408534274
 20
5714875.45478389319
  0
SEQEND
  5
B9
100
AcDbEntity
  8
proj_osie
  0
POLYLINE
  5
BA
100
AcDbEntity
  8
proj_osie
  6
ByLayer
370
18
100
AcDb2dPolyline
 66
1
 70
128
  0
VERTEX
  5
BB
100
AcDbEntity
  8
proj_osie
100
AcDbVertex
100
AcDb2dVertex
 10
7569012.67908534314
 20
5714881.85078389384
  0
VERTEX
  5
BC
100
AcDbEntity
  8
proj_osie
100
AcDbVertex
100
AcDb2dVertex
 10
7569015.26935452037
 20
5714881.6215938488
  0
SEQEND
  5
BD
100
AcDbEntity
  8
proj_osie
  0
POLYLINE
  5
BE
100
AcDbEntity
  8
proj_osie
  6
ByLayer
370
18
100
AcDb2dPolyline
 66
1
 70
128
  0
VERTEX
  5
BF
100
AcDbEntity
  8
proj_osie
100
AcDbVertex
100
AcDb2dVertex
 10
7569012.11408534274
 20
5714875.45478389319
  0
VERTEX
  5
C0
100
AcDbEntity
  8
proj_osie
100
AcDbVertex
100
AcDb2dVertex
 10
7569014.70439772774
 20
5714875.22639301606
  0
SEQEND
  5
C1
100
AcDbEntity
  8
proj_osie
  0
POLYLINE
  5
C2
100
AcDbEntity
  8
proj_osie
  6
ByLayer
370
18
100
AcDb2dPolyline
 66
1
 70
128
  0
VERTEX
  5
C3
100
AcDbEntity
  8
proj_osie
100
AcDbVertex
100
AcDb2dVertex
 10
7569021.94609447476
 20
5714876.52423474472
  0
VERTEX
  5
C4
100
AcDbEntity
  8
proj_osie
100
AcDbVertex
100
AcDb2dVertex
 10
7569020.12346967217
 20
5714876.68561980221
  0
SEQEND
  5
C5
100
AcDbEntity
  8
proj_osie
  0
POLYLINE
  5
C6
100
AcDbEntity
  8
proj_osie
  6
ByLayer
370
18
100
AcDb2dPolyline
 66
1
 70
128
  0
VERTEX
  5
C7
100
AcDbEntity
  8
proj_osie
100
AcDbVertex
100
AcDb2dVertex
 10
7569022.17177641392
 20
5714879.07410381548
  0
VERTEX
  5
C8
100
AcDbEntity
  8
proj_osie
100
AcDbVertex
100
AcDb2dVertex
 10
7569020.34878934734
 20
5714879.23552086763
  0
SEQEND
  5
C9
100
AcDbEntity
  8
proj_osie
  0
POLYLINE
  5
CA
100
AcDbEntity
  8
proj_osie
  6
ByLayer
370
18
100
AcDb2dPolyline
 66
1
 70
128
  0
VERTEX
  5
CB
100
AcDbEntity
  8
proj_osie
100
AcDbVertex
100
AcDb2dVertex
 10
7569022.17177641392
 20
5714879.07410381548
  0
VERTEX
  5
CC
100
AcDbEntity
  8
proj_osie
100
AcDbVertex
100
AcDb2dVertex
 10
7569021.94609447476
 20
5714876.52423474472
  0
SEQEND
  5
CD
100
AcDbEntity
  8
proj_osie
  0
POLYLINE
  5
CE
100
AcDbEntity
  8
proj_osie
  6
ByLayer
370
18
100
AcDb2dPolyline
 66
1
 70
128
  0
VERTEX
  5
CF
100
AcDbEntity
  8
proj_osie
100
AcDbVertex
100
AcDb2dVertex
 10
7569023.09836888406
 20
5714878.99189828709
  0
VERTEX
  5
D0
100
AcDbEntity
  8
proj_osie
100
AcDbVertex
100
AcDb2dVertex
 10
7569022.87236888427
 20
5714876.44189828727
  0
SEQEND
  5
D1
100
AcDbEntity
  8
proj_osie
  0
POLYLINE
  5
D2
100
AcDbEntity
  8
proj_osie
  6
ByLayer
370
18
100
AcDb2dPolyline
 66
1
 70
128
  0
VERTEX
  5
D3
100
AcDbEntity
  8
proj_osie
100
AcDbVertex
100
AcDb2dVertex
 10
7569022.17177641392
 20
5714879.07410381548
  0
VERTEX
  5
D4
100
AcDbEntity
  8
proj_osie
100
AcDbVertex
100
AcDb2dVertex
 10
7569023.09836888406
 20
5714878.99189828709
  0
SEQEND
  5
D5
100
AcDbEntity
  8
proj_osie
  0
POLYLINE
  5
D6
100
AcDbEntity
  8
proj_osie
  6
ByLayer
370
18
100
AcDb2dPolyline
 66
1
 70
128
  0
VERTEX
  5
D7
100
AcDbEntity
  8
proj_osie
100
AcDbVertex
100
AcDb2dVertex
 10
7569021.94609447476
 20
5714876.52423474472
  0
VERTEX
  5
D8
100
AcDbEntity
  8
proj_osie
100
AcDbVertex
100
AcDb2dVertex
 10
7569022.87236888427
 20
5714876.44189828727
  0
SEQEND
  5
D9
100
AcDbEntity
  8
proj_osie
  0
TEXT
  5
DA
100
AcDbEntity
  8
pomocnicza
370
18
100
AcDbText
 39
0.18
 10
7569002.66844668984
 20
5714890.13507026155
 40
0.18
  1
-3.500-
 50
-5.00
 41
0.66
  7
STANDARD
 72
1
 11
7569002.97701867484
 21
5714890.04784452077
100
AcDbText
 73
1
  0
TEXT
  5
DB
100
AcDbEntity
  8
pomocnicza
370
18
100
AcDbText
 39
0.18
 10
7569004.45173677057
 20
5714887.35986524355
 40
0.18
  1
-4.500-
 50
-275.00
 41
0.66
  7
STANDARD
 72
1
 11
7569004.53896251135
 21
5714887.66843722854
100
AcDbText
 73
1
  0
TEXT
  5
DC
100
AcDbEntity
  8
pomocnicza
370
18
100
AcDbText
 39
0.18
 10
7569002.2741986718
 20
5714885.36445405986
 40
0.18
  1
-3.500-
 50
-5.00
 41
0.66
  7
STANDARD
 72
1
 11
7569002.58277065679
 21
5714885.27722831909
100
AcDbText
 73
1
  0
TEXT
  5
DD
100
AcDbEntity
  8
pomocnicza
370
18
100
AcDbText
 39
0.18
 10
7569000.96653132141
 20
5714887.68133526389
 40
0.18
  1
-4.499-
 50
-275.00
 41
0.66
  7
STANDARD
 72
1
 11
7569001.05375706218
 21
5714887.98990724888
100
AcDbText
 73
1
  0
TEXT
  5
DE
100
AcDbEntity
  8
pomocnicza
370
18
100
AcDbText
 39
0.18
 10
7569014.63429979514
 20
5714878.13904438354
 40
0.18
  1
-7.000-
 50
-275.00
 41
0.66
  7
STANDARD
 72
1
 11
7569014.72152553592
 21
5714878.44761636853
100
AcDbText
 73
1
  0
TEXT
  5
DF
100
AcDbEntity
  8
pomocnicza
370
18
100
AcDbText
 39
0.18
 10
7569016.99264270626
 20
5714874.76922938786
 40
0.18
  1
-5.850-
 50
-5.00
 41
0.66
  7
STANDARD
 72
1
 11
7569017.30121469125
 21
5714874.68200364709
100
AcDbText
 73
1
  0
TEXT
  5
E0
100
AcDbEntity
  8
pomocnicza
370
18
100
AcDbText
 39
0.18
 10
7569020.24075451214
 20
5714875.12403766718
 40
0.18
  1
-1.980-
 50
-275.00
 41
0.66
  7
STANDARD
 72
1
 11
7569020.32798025291
 21
5714875.43260965217
100
AcDbText
 73
1
  0
TEXT
  5
E1
100
AcDbEntity
  8
pomocnicza
370
18
100
AcDbText
 39
0.18
 10
7569020.96706606448
 20
5714876.40586739685
 40
0.18
  1
-1.780-
 50
-5.00
 41
0.66
  7
STANDARD
 72
1
 11
7569021.27563804947
 21
5714876.31864165608
100
AcDbText
 73
1
  0
TEXT
  5
E2
100
AcDbEntity
  8
pomocnicza
370
18
100
AcDbText
 39
0.18
 10
7569022.23470568378
 20
5714877.46767985914
 40
0.18
  1
-3.040-
 50
-275.00
 41
0.66
  7
STANDARD
 72
1
 11
7569022.32193142455
 21
5714877.77625184413
100
AcDbText
 73
1
  0
TEXT
  5
E3
100
AcDbEntity
  8
pomocnicza
370
18
100
AcDbText
 39
0.18
 10
7569021.23455599323
 20
5714879.4340762943
 40
0.18
  1
-1.780-
 50
-5.00
 41
0.66
  7
STANDARD
 72
1
 11
7569021.54312797822
 21
5714879.34685055353
100
AcDbText
 73
1
  0
TEXT
  5
E4
100
AcDbEntity
  8
pomocnicza
370
18
100
AcDbText
 39
0.18
 10
7569020.68246485572
 20
5714880.12456683628
 40
0.18
  1
-1.980-
 50
-275.00
 41
0.66
  7
STANDARD
 72
1
 11
7569020.7696905965
 21
5714880.43313882127
100
AcDbText
 73
1
  0
TEXT
  5
E5
100
AcDbEntity
  8
pomocnicza
370
18
100
AcDbText
 39
0.18
 10
7569017.60857346375
 20
5714881.74207882769
 40
0.18
  1
-5.850-
 50
-5.00
 41
0.66
  7
STANDARD
 72
1
 11
7569017.91714544874
 21
5714881.65485308692
100
AcDbText
 73
1
  0
TEXT
  5
E6
100
AcDbEntity
  8
proj_osie
370
18
100
AcDbText
 39
0.18
 10
7569002.65595509298
 20
5714889.99541090988
 40
0.18
  1
-3.220-
 50
-5.00
 41
0.66
  7
STANDARD
 72
1
 11
7569002.96452707797
 21
5714889.9081851691
100
AcDbText
 73
1
  0
TEXT
  5
E7
100
AcDbEntity
  8
proj_osie
370
18
100
AcDbText
 39
0.18
 10
7569004.31227489188
 20
5714887.37269701622
 40
0.18
  1
-4.220-
 50
-275.00
 41
0.66
  7
STANDARD
 72
1
 11
7569004.39950063266
 21
5714887.68126900122
100
AcDbText
 73
1
  0
TEXT
  5
E8
100
AcDbEntity
  8
proj_osie
370
18
100
AcDbText
 39
0.18
 10
7569002.26771746203
 20
5714885.79372321814
 40
0.18
  1
-3.220-
 50
-5.00
 41
0.66
  7
STANDARD
 72
1
 11
7569002.57628944702
 21
5714885.70649747737
100
AcDbText
 73
1
  0
TEXT
  5
E9
100
AcDbEntity
  8
proj_osie
370
18
100
AcDbText
 39
0.18
 10
7569001.1060909722
 20
5714887.6684755329
 40
0.18
  1
-4.219-
 50
-275.00
 41
0.66
  7
STANDARD
 72
1
 11
7569001.19331671298
 21
5714887.9770475179
100
AcDbText
 73
1
  0
TEXT
  5
EA
100
AcDbEntity
  8
proj_osie
370
18
100
AcDbText
 39
0.18
 10
7569002.26771746203
 20
5714885.79372321814
 40
0.18
  1
-3.220-
 50
-5.00
 41
0.66
  7
STANDARD
 72
1
 11
7569002.57628944702
 21
5714885.70649747737
100
AcDbText
 73
1
  0
TEXT
  5
EB
100
AcDbEntity
  8
proj_osie
370
18
100
AcDbText
 39
0.18
 10
7569000.84495056234
 20
5714884.84619007446
 40
0.18
  1
-1.450-
 50
-275.00
 41
0.66
  7
STANDARD
 72
1
 11
7569000.93217630312
 21
5714885.15476205945
100
AcDbText
 73
1
  0
TEXT
  5
EC
100
AcDbEntity
  8
proj_osie
370
18
100
AcDbText
 39
0.18
 10
7569004.05104292929
 20
5714884.54957078025
 40
0.18
  1
-1.450-
 50
-275.00
 41
0.66
  7
STANDARD
 72
1
 11
7569004.13826867007
 21
5714884.85814276524
100
AcDbText
 73
1
  0
TEXT
  5
ED
100
AcDbEntity
  8
proj_osie
370
18
100
AcDbText
 39
0.18
 10
7569002.13358272146
 20
5714884.34999921732
 40
0.18
  1
-3.220-
 50
-5.00
 41
0.66
  7
STANDARD
 72
1
 11
7569002.44215470646
 21
5714884.26277347654
100
AcDbText
 73
1
  0
TEXT
  5
EE
100
AcDbEntity
  8
proj_osie
370
18
100
AcDbText
 39
0.18
 10
7569015.19254593737
 20
5714878.06619866751
 40
0.18
  1
-6.421-
 50
-275.00
 41
0.66
  7
STANDARD
 72
1
 11
7569015.27977167815
 21
5714878.3747706525
100
AcDbText
 73
1
  0
TEXT
  5
EF
100
AcDbEntity
  8
proj_osie
370
18
100
AcDbText
 39
0.18
 10
7569017.01834059693
 20
5714875.05819338933
 40
0.18
  1
-5.270-
 50
-5.00
 41
0.66
  7
STANDARD
 72
1
 11
7569017.32691258192
 21
5714874.97096764855
100
AcDbText
 73
1
  0
TEXT
  5
F0
100
AcDbEntity
  8
proj_osie
370
18
100
AcDbText
 39
0.18
 10
7569019.97729814798
 20
5714875.43874469958
 40
0.18
  1
-1.980-
 50
-275.00
 41
0.66
  7
STANDARD
 72
1
 11
7569020.06452388875
 21
5714875.74731668457
100
AcDbText
 73
1
  0
TEXT
  5
F1
100
AcDbEntity
  8
proj_osie
370
18
100
AcDbText
 39
0.18
 10
7569020.36832190678
 20
5714879.86101397034
 40
0.18
  1
-1.980-
 50
-275.00
 41
0.66
  7
STANDARD
 72
1
 11
7569020.45554764755
 21
5714880.16958595533
100
AcDbText
 73
1
  0
TEXT
  5
F2
100
AcDbEntity
  8
proj_osie
370
18
100
AcDbText
 39
0.18
 10
7569017.58333195746
 20
5714881.45294074528
 40
0.18
  1
-5.270-
 50
-5.00
 41
0.66
  7
STANDARD
 72
1
 11
7569017.89190394245
 21
5714881.3657150045
100
AcDbText
 73
1
  0
TEXT
  5
F3
100
AcDbEntity
  8
proj_osie
370
18
100
AcDbText
 39
0.18
 10
7569020.91900000162
 20
5714881.00900000148
 40
0.18
  1
1
 50
0.00
 41
0.66
 51
15.00
  7
STANDARD
 72
0
 11
7569020.91900000162
 21
5714881.18900000118
100
AcDbText
 73
3
  0
TEXT
  5
F4
100
AcDbEntity
  8
proj_osie
370
18
100
AcDbText
 39
0.18
 10
7569012.20300000161
 20
5714881.8040000014
 40
0.18
  1
1
 50
0.00
 41
0.66
 51
15.00
  7
STANDARD
 72
0
 11
7569012.20300000161
 21
5714881.9840000011
100
AcDbText
 73
3
  0
TEXT
  5
F5
100
AcDbEntity
  8
proj_osie
370
18
100
AcDbText
 39
0.18
 10
7569019.85200000182
 20
5714879.14500000142
 40
0.18
  1
3
 50
0.00
 41
0.66
 51
15.00
  7
STANDARD
 72
0
 11
7569019.85200000182
 21
5714879.32500000112
100
AcDbText
 73
3
  0
TEXT
  5
F6
100
AcDbEntity
  8
proj_osie
370
18
100
AcDbText
 39
0.18
 10
7569023.31800000183
 20
5714878.78600000124
 40
0.18
  1
3
 50
0.00
 41
0.66
 51
15.00
  7
STANDARD
 72
0
 11
7569023.31800000183
 21
5714878.96600000095
100
AcDbText
 73
3
  0
TEXT
  5
F7
100
AcDbEntity
  8
proj_osie
370
18
100
AcDbText
 39
0.18
 10
7569019.62900000159
 20
5714876.71800000127
 40
0.18
  1
4
 50
0.00
 41
0.66
 51
15.00
  7
STANDARD
 72
0
 11
7569019.62900000159
 21
5714876.89800000098
100
AcDbText
 73
3
  0
TEXT
  5
F8
100
AcDbEntity
  8
proj_osie
370
18
100
AcDbText
 39
0.18
 10
7569023.07500000205
 20
5714876.4560000021
 40
0.18
  1
4
 50
0.00
 41
0.66
 51
15.00
  7
STANDARD
 72
0
 11
7569023.07500000205
 21
5714876.6360000018
100
AcDbText
 73
3
  0
TEXT
  5
F9
100
AcDbEntity
  8
proj_osie
370
18
100
AcDbText
 39
0.18
 10
7569011.68000000156
 20
5714875.47500000149
 40
0.18
  1
6
 50
0.00
 41
0.66
 51
15.00
  7
STANDARD
 72
0
 11
7569011.68000000156
 21
5714875.65500000119
100
AcDbText
 73
3
  0
TEXT
  5
FA
100
AcDbEntity
  8
proj_osie
370
18
100
AcDbText
 39
0.18
 10
7569020.38700000197
 20
5714874.68000000156
 40
0.18
  1
6
 50
0.00
 41
0.66
 51
15.00
  7
STANDARD
 72
0
 11
7569020.38700000197
 21
5714874.86000000127
100
AcDbText
 73
3
  0
TEXT
  5
FB
100
AcDbEntity
  8
proj_osie
370
18
100
AcDbText
 39
0.18
 10
7569011.97100000177
 20
5714874.8740000017
 40
0.18
  1
A
 50
0.00
 41
0.66
 51
15.00
  7
STANDARD
 72
0
 11
7569011.97100000177
 21
5714875.0540000014
100
AcDbText
 73
3
  0
TEXT
  5
FC
100
AcDbEntity
  8
proj_osie
370
18
100
AcDbText
 39
0.18
 10
7569012.67000000179
 20
5714882.24200000148
 40
0.18
  1
A
 50
0.00
 41
0.66
 51
15.00
  7
STANDARD
 72
0
 11
7569012.67000000179
 21
5714882.42200000118
100
AcDbText
 73
3
  0
TEXT
  5
FD
100
AcDbEntity
  8
proj_osie
370
18
100
AcDbText
 39
0.18
 10
7569015.32000000216
 20
5714882.00900000148
 40
0.18
  1
B
 50
0.00
 41
0.66
 51
15.00
  7
STANDARD
 72
0
 11
7569015.32000000216
 21
5714882.18900000118
100
AcDbText
 73
3
  0
TEXT
  5
FE
100
AcDbEntity
  8
proj_osie
370
18
100
AcDbText
 39
0.18
 10
7569014.59200000204
 20
5714874.64100000169
 40
0.18
  1
B
 50
0.00
 41
0.66
 51
15.00
  7
STANDARD
 72
0
 11
7569014.59200000204
 21
5714874.82100000139
100
AcDbText
 73
3
  0
TEXT
  5
FF
100
AcDbEntity
  8
proj_osie
370
18
100
AcDbText
 39
0.18
 10
7569019.77500000224
 20
5714874.18400000129
 40
0.18
  1
C
 50
0.00
 41
0.66
 51
15.00
  7
STANDARD
 72
0
 11
7569019.77500000224
 21
5714874.36400000099
100
AcDbText
 73
3
  0
TEXT
  5
100
100
AcDbEntity
  8
proj_osie
370
18
100
AcDbText
 39
0.18
 10
7569020.46500000171
 20
5714881.56100000162
 40
0.18
  1
C
 50
0.00
 41
0.66
 51
15.00
  7
STANDARD
 72
0
 11
7569020.46500000171
 21
5714881.74100000132
100
AcDbText
 73
3
  0
TEXT
  5
101
100
AcDbEntity
  8
proj_osie
370
18
100
AcDbText
 39
0.18
 10
7569022.10500000138
 20
5714879.41600000206
 40
0.18
  1
D
 50
0.00
 41
0.66
 51
15.00
  7
STANDARD
 72
0
 11
7569022.10500000138
 21
5714879.59600000177
100
AcDbText
 73
3
  0
TEXT
  5
102
100
AcDbEntity
  8
proj_osie
370
18
100
AcDbText
 39
0.18
 10
7569021.78500000201
 20
5714876.01800000202
 40
0.18
  1
D
 50
0.00
 41
0.66
 51
15.00
  7
STANDARD
 72
0
 11
7569021.78500000201
 21
5714876.19800000172
100
AcDbText
 73
3
  0
TEXT
  5
103
100
AcDbEntity
  8
proj_osie
370
18
100
AcDbText
 39
0.18
 10
7569023.0280000018
 20
5714879.35800000187
 40
0.18
  1
E
 50
0.00
 41
0.66
 51
15.00
  7
STANDARD
 72
0
 11
7569023.0280000018
 21
5714879.53800000157
100
AcDbText
 73
3
  0
TEXT
  5
104
100
AcDbEntity
  8
proj_osie
370
18
100
AcDbText
 39
0.18
 10
7569022.69800000172
 20
5714875.95000000205
 40
0.18
  1
E
 50
0.00
 41
0.66
 51
15.00
  7
STANDARD
 72
0
 11
7569022.69800000172
 21
5714876.13000000175
100
AcDbText
 73
3
  0
TEXT
  5
105
100
AcDbEntity
  8
proj_osie
370
18
100
AcDbText
 39
0.18
 10
7569001.36999999639
 20
5714890.37999999709
 40
0.18
  1
A
 50
0.00
 41
0.66
 51
15.00
  7
STANDARD
 72
0
 11
7569001.36999999639
 21
5714890.5599999968
100
AcDbText
 73
3
  0
TEXT
  5
106
100
AcDbEntity
  8
proj_osie
370
18
100
AcDbText
 39
0.18
 10
7569000.71999999601
 20
5714883.84999999776
 40
0.18
  1
A
 50
0.00
 41
0.66
 51
15.00
  7
STANDARD
 72
0
 11
7569000.71999999601
 21
5714884.02999999747
100
AcDbText
 73
3
  0
TEXT
  5
107
100
AcDbEntity
  8
proj_osie
370
18
100
AcDbText
 39
0.18
 10
7569004.51999999583
 20
5714890.1399999978
 40
0.18
  1
B
 50
0.00
 41
0.66
 51
15.00
  7
STANDARD
 72
0
 11
7569004.51999999583
 21
5714890.3199999975
100
AcDbText
 73
3
  0
TEXT
  5
108
100
AcDbEntity
  8
proj_osie
370
18
100
AcDbText
 39
0.18
 10
7569003.82999999635
 20
5714883.60999999754
 40
0.18
  1
B
 50
0.00
 41
0.66
 51
15.00
  7
STANDARD
 72
0
 11
7569003.82999999635
 21
5714883.78999999724
100
AcDbText
 73
3
  0
TEXT
  5
109
100
AcDbEntity
  8
proj_osie
370
18
100
AcDbText
 39
0.18
 10
7569000.8499999959
 20
5714889.95999999717
 40
0.18
  1
1
 50
0.00
 41
0.66
 51
15.00
  7
STANDARD
 72
0
 11
7569000.8499999959
 21
5714890.13999999687
100
AcDbText
 73
3
  0
TEXT
  5
10A
100
AcDbEntity
  8
proj_osie
370
18
100
AcDbText
 39
0.18
 10
7569004.90999999642
 20
5714889.6399999978
 40
0.18
  1
1
 50
0.00
 41
0.66
 51
15.00
  7
STANDARD
 72
0
 11
7569004.90999999642
 21
5714889.8199999975
100
AcDbText
 73
3
  0
TEXT
  5
10B
100
AcDbEntity
  8
proj_osie
370
18
100
AcDbText
 39
0.18
 10
7569000.4899999965
 20
5714885.86999999732
 40
0.18
  1
2
 50
0.00
 41
0.66
 51
15.00
  7
STANDARD
 72
0
 11
7569000.4899999965
 21
5714886.04999999702
100
AcDbText
 73
3
  0
TEXT
  5
10C
100
AcDbEntity
  8
proj_osie
370
18
100
AcDbText
 39
0.18
 10
7569004.4899999965
 20
5714885.42999999784
 40
0.18
  1
2
 50
0.00
 41
0.66
 51
15.00
  7
STANDARD
 72
0
 11
7569004.4899999965
 21
5714885.60999999754
100
AcDbText
 73
3
  0
TEXT
  5
10D
100
AcDbEntity
  8
proj_osie
370
18
100
AcDbText
 39
0.18
 10
7569000.29999999609
 20
5714884.42999999784
 40
0.18
  1
3
 50
0.00
 41
0.66
 51
15.00
  7
STANDARD
 72
0
 11
7569000.29999999609
 21
5714884.60999999754
100
AcDbText
 73
3
  0
TEXT
  5
10E
100
AcDbEntity
  8
proj_osie
370
18
100
AcDbText
 39
0.18
 10
7569004.4899999965
 20
5714884.02999999747
 40
0.18
  1
3
 50
0.00
 41
0.66
 51
15.00
  7
STANDARD
 72
0
 11
7569004.4899999965
 21
5714884.20999999717
100
AcDbText
 73
3
  0
TEXT
  5
10F
100
AcDbEntity
  8
proj_osie
370
18
100
AcDbText
 39
0.18
 10
7569013.09857781231
 20
5714875.40390552208
 40
0.18
  1
-2.600-
 50
-5.00
 41
0.66
  7
STANDARD
 72
1
 11
7569013.40714979731
 21
5714875.3166797813
100
AcDbText
 73
1
  0
TEXT
  5
110
100
AcDbEntity
  8
proj_osie
370
18
100
AcDbText
 39
0.18
 10
7569020.94961915817
 20
5714879.21812940948
 40
0.18
  1
-1.830-
 50
-5.00
 41
0.66
  7
STANDARD
 72
1
 11
7569021.25819114316
 21
5714879.1309036687
100
AcDbText
 73
1
  0
TEXT
  5
111
100
AcDbEntity
  8
proj_osie
370
18
100
AcDbText
 39
0.18
 10
7569020.724118351
 20
5714876.66824434139
 40
0.18
  1
-1.830-
 50
-5.00
 41
0.66
  7
STANDARD
 72
1
 11
7569021.032690336
 21
5714876.58101860061
100
AcDbText
 73
1
  0
TEXT
  5
112
100
AcDbEntity
  8
proj_osie
370
18
100
AcDbText
 39
0.18
 10
7569022.32440892607
 20
5714879.09631811921
 40
0.18
  1
-0.930-
 50
-5.00
 41
0.66
  7
STANDARD
 72
1
 11
7569022.63298091106
 21
5714879.00909237843
100
AcDbText
 73
1
  0
TEXT
  5
113
100
AcDbEntity
  8
proj_osie
370
18
100
AcDbText
 39
0.18
 10
7569022.09856795706
 20
5714876.54638358392
 40
0.18
  1
-0.930-
 50
-5.00
 41
0.66
  7
STANDARD
 72
1
 11
7569022.40713994205
 21
5714876.45915784314
100
AcDbText
 73
1
  0
TEXT
  5
114
100
AcDbEntity
  8
proj_osie
370
18
100
AcDbText
 39
0.18
 10
7569021.99561837688
 20
5714877.48850555718
 40
0.18
  1
-2.560-
 50
-275.00
 41
0.66
  7
STANDARD
 72
1
 11
7569022.08284411766
 21
5714877.79707754217
100
AcDbText
 73
1
  0
TEXT
  5
115
100
AcDbEntity
  8
proj_osie
370
18
100
AcDbText
 39
0.18
 10
7569022.92205181625
 20
5714877.40623456426
 40
0.18
  1
-2.560-
 50
-275.00
 41
0.66
  7
STANDARD
 72
1
 11
7569023.00927755702
 21
5714877.71480654925
100
AcDbText
 73
1
  0
ENDSEC
  0
SECTION
  2
OBJECTS
  0
DICTIONARY
  5
116
330
0
100
AcDbDictionary
280
0
281
1
  3
ACAD_GROUP
350
117
  3
ACAD_LAYOUT
350
118
  3
ACAD_MLINESTYLE
350
119
  3
ACAD_PLOTSETTINGS
350
11A
  3
ACAD_PLOTSTYLENAME
350
11B
  0
DICTIONARY
  5
117
102
{ACAD_REACTORS
330
116
102
}
330
116
100
AcDbDictionary
280
0
281
1
  0
DICTIONARY
  5
118
102
{ACAD_REACTORS
330
116
102
}
330
116
100
AcDbDictionary
280
0
281
1
  3
Layout
350
1A
  3
Model
350
18
  0
DICTIONARY
  5
119
102
{ACAD_REACTORS
330
116
102
}
330
116
100
AcDbDictionary
280
0
281
1
  3
Standard
350
11C
  0
DICTIONARY
  5
11A
102
{ACAD_REACTORS
330
116
102
}
330
116
100
AcDbDictionary
280
0
281
1
  0
ACDBDICTIONARYWDFLT
  5
11B
102
{ACAD_REACTORS
330
116
102
}
330
116
100
AcDbDictionary
281
1
  3
Normal
350
A
100
AcDbDictionaryWithDefault
340
A
  0
LAYOUT
  5
1A
100
AcDbPlotSettings
  1

  2

  4

  6

 40
0.0
 41
0.0
 42
0.0
 43
0.0
 44
0.0
 45
0.0
 46
0.0
 47
0.0
 48
0.0
 49
0.0
140
0.0
141
0.0
142
1.0
143
1.0
 70
688
 72
1
 73
0
 74
5
  7

 75
0
147
1.0
148
0.0
149
0.0
100
AcDbLayout
  1
Layout
 70
1
 71
1
 10
0.0
 20
0.0
 11
420.0
 21
297.0
 12
0.0
 22
0.0
 32
0.0
 14
100000000000000000000.0
 24
100000000000000000000.0
 34
100000000000000000000.0
 15
-100000000000000000000.0
 25
-100000000000000000000.0
 35
-100000000000000000000.0
146
0.0
 13
0.0
 23
0.0
 33
0.0
 16
1.0
 26
0.0
 36
0.0
 17
0.0
 27
1.0
 37
0.0
 76
0
330
19
  0
LAYOUT
  5
18
100
AcDbPlotSettings
  1

  2

  4

  6

 40
0.0
 41
0.0
 42
0.0
 43
0.0
 44
0.0
 45
0.0
 46
0.0
 47
0.0
 48
0.0
 49
0.0
140
0.0
141
0.0
142
1.0
143
1.0
 70
1712
 72
1
 73
0
 74
0
  7

 75
0
147
1.0
148
0.0
149
0.0
100
AcDbLayout
  1
Model
 70
1
 71
0
 10
0.0
 20
0.0
 11
12.0
 21
9.0
 12
0.0
 22
0.0
 32
0.0
 14
0.0
 24
0.0
 34
0.0
 15
0.0
 25
0.0
 35
0.0
146
0.0
 13
0.0
 23
0.0
 33
0.0
 16
1.0
 26
0.0
 36
0.0
 17
0.0
 27
1.0
 37
0.0
 76
0
330
17
  0
MLINESTYLE
  5
11C
102
{ACAD_REACTORS
330
119
102
}
330
119
100
AcDbMlineStyle
  2
Standard
 70
0
  3

 62
256
 51
90.0
 52
90.0
  2
Standard
 71
2
 49
0.5
 62
256
  6
ByLayer
 49
-0.5
 62
256
  6
ByLayer
  0
ACDBPLACEHOLDER
  5
A
  0
ENDSEC
  0
EOF
